Laboratorio de investigación

Ver el tema anterior Ver el tema siguiente Ir abajo

Re: Laboratorio de investigación

Mensaje  thepro el Dom Mayo 23, 2010 10:17 am


•Los laboratorios de investigación sirven para hacer avances científicos... la clave de la nueva tecnología y de una expansión exitosa. Todos ellos están conectados y trabajan juntos; con cada mejora, los laboratorios aumentan su velocidad de generación de puntos de investigación.

•Un buen consejo es mantener los centros secundarios entre 3 y 4 niveles por debajo del centro de investigación principal para tener la mejor generación de PI en ella.

•"Económicamente, querrás mejorar los centros de tus colonias antes que el de tu planeta principal, sólo si es menos de un tercio del coste, obtendrás un tercio de puntos de investigación."

•Esta es una lista de puntos de investigacion de el planeta principal y los segundarios el principal esta representado por PI Pplaneta y los segundario por Splaneta

Nivel-PI Pplaneta*-PI Splaneta**

1-----30-----------10
2-----36-----------12
3-----42-----------14
4-----48-----------16
5-----54-----------18
6-----60-----------20
7-----66-----------22
8-----72-----------24
9-----78-----------26
10----84-----------28
11----90-----------30
12----96-----------32
13---102-----------34
14---108-----------36
15---114-----------38
16---120-----------40
17---126-----------42
18---132-----------44
19---138-----------46
20---150-----------50


Estos son los puntos de investigacion que producen tanto el planeta principal como el planeta segundario...

Espero que te sirva de ayuda Si quieres saber mas vicita IMPERION-WIKI

Salu2 +^Brav3s$^+

thepro
Admin
Admin

Mensajes : 30
Puntos : 225
Reputación : 10
Fecha de inscripción : 21/03/2010
Edad : 22
Localización : Venezuela,Monagas

Ver perfil de usuario http://brav3ss.forosactivos.com

Volver arriba Ir abajo

Ver el tema anterior Ver el tema siguiente Volver arriba

- Temas similares

 
Permisos de este foro:
No puedes responder a temas en este foro.